Hur man spelar G Major / E Minor Scale on Guitar (antagen från Cyclopedia Music Theory)

 

1.

G Major (i position) som börjar på E eller 6: e strängen, vid 3: e fret:


Nedre tetrachord: G, A, B, C
Övre tetrachord: D, E, F #, (G)



e -------------- --------------------------- 2--3--5-3--2--
B ---- ------------------------------- 3--5 --------------- -
G -------------------------- 2--4--5 ----------- -----------
D ----------------- 2--4--5 ---------- ---------------------
A -------- 2--3--5 --------- -------------------------------
E -3--5 -------- -----------------------------------------

< br /> e ---------------------------------------------- -
B - 5--3 -------------------------------------- ---
G -------- 5--4--2 --------------------------- -----
D ----------------- 5--4--2 ---------------- -------
A -------------------------- 5--3-2-2- ---------
E ----------------------------------- 5 - 3-2-23 -

2.

Emskalan formas enkelt genom att börja i sjätte graden av G Major-skalan och följer ovanstående intervall formel för tonen, tonen, semitonen, {tonen}, tonen, tonen, semitonen.


E Minor


e ----------------------- --------------- 7--9--10--9--7--
B --------------- ------------- 7--8--10 ------------------
G ------- --------------- 7-9 ----------------------------
D ------------ 7--9--10 ----------------------------- -----
A -7--9--10 ------------------------------- -------------
E -------------------------------- ----------------------

e ------------------- -----------------------------------
B - 10--8--7- -------------------------------------------
G - ---------- 9--7 ------------------------------------ -
D ------------------ 10--9--7 ------------------ ----------
A ---------------------------- 10--9--7 --------------- 7--
E --------------------------- ----------- 10--8--7--8 -----

3.

Nästa skala längs cirkeln av femtals är D Major / B Minor.


Tangent:
Cmaj / Am = C, D, E, F, G, A, B (inga skarvar eller lägenheter)
Gmj / Em = G, A, B, C, D, E, F # (1 skarp)
Dmaj / Bm = D, E, F #, G, A, B, C # (2 skarpar)
Emaj / C # m = E, F #, G #, A, B, C #, D # (4 sharps)
Bmaj / G # m = B, C #, D #, E, F #, G #, A # D, Eb, F, Gb, Ab, Bb, C (5 lägenheter)
Abmaj / Fm = Ab, B, C, Bb, C, Db, Eb, F, G (4 lägenheter)
Ebmaj / Cm = Eb, F, G, Ab, Bb, C, D (3 lägenheter)
Bbmaj / Gm = Bb, C, D, Eb, F, G, A (2 lägenheter)
Fmaj / Dm = F, G, A, Bb, C, D, E (1 platt)

Tips och varningar

  • För att skapa en harmonisk minor, höja helt enkelt den sjunde graden av en naturlig minor.
  • För att bilda en melodisk minor höja sjunde och sjätte graden.
  • G-storskalan är formad från huvudkärnan i G Major - G, A, B, C, D, E, F #, (G) och består av formeln: ton-ton-ton-ton-ton-ton-ton- semitone.

    Den relativa minor är E Minor.